ISO-10303-21;
HEADER;
/* Generated by software containing ST-Developer
 * from STEP Tools, Inc. (www.steptools.com) 
 */
/* OPTION: using custom schema-name function */

FILE_DESCRIPTION(
/* description */ (''),
/* implementation_level */ '2;1');

FILE_NAME(
/* name */ 'EX-LD41S15.stp',
/* time_stamp */ '2023-04-10T10:07:51+08:00',
/* author */ (''),
/* organization */ (''),
/* preprocessor_version */ 'ST-DEVELOPER v16.7',
/* originating_system */ 'SIEMENS PLM Software NX 12.0',
/* authorisation */ '');

FILE_SCHEMA (('AUTOMOTIVE_DESIGN { 1 0 10303 214 3 1 1 1 }'));
ENDSEC;

DATA;
#10=SHAPE_REPRESENTATION_RELATIONSHIP('None',
'relationship between EX-LD41S15-None and EX-LD41S15-None',#22,#11);
#11=ADVANCED_BREP_SHAPE_REPRESENTATION('EX-LD41S15-None',(#53,#54,#55,#56),
#408);
#12=SHAPE_DEFINITION_REPRESENTATION(#13,#22);
#13=PRODUCT_DEFINITION_SHAPE('','',#14);
#14=PRODUCT_DEFINITION(' ','',#16,#15);
#15=PRODUCT_DEFINITION_CONTEXT('part definition',#21,'design');
#16=PRODUCT_DEFINITION_FORMATION_WITH_SPECIFIED_SOURCE(' ',' ',#18,
 .NOT_KNOWN.);
#17=PRODUCT_RELATED_PRODUCT_CATEGORY('part','',(#18));
#18=PRODUCT('EX-LD41S15','EX-LD41S15',' ',(#19));
#19=PRODUCT_CONTEXT(' ',#21,'mechanical');
#20=APPLICATION_PROTOCOL_DEFINITION('international standard',
'automotive_design',2010,#21);
#21=APPLICATION_CONTEXT(
'core data for automotive mechanical design processes');
#22=SHAPE_REPRESENTATION('EX-LD41S15-None',(#247),#408);
#23=PRESENTATION_LAYER_ASSIGNMENT('1','Layer 1',(#53,#54,#55,#56));
#24=STYLED_ITEM('',(#28),#53);
#25=STYLED_ITEM('',(#29),#54);
#26=STYLED_ITEM('',(#30),#55);
#27=STYLED_ITEM('',(#31),#56);
#28=PRESENTATION_STYLE_ASSIGNMENT((#32));
#29=PRESENTATION_STYLE_ASSIGNMENT((#33));
#30=PRESENTATION_STYLE_ASSIGNMENT((#34));
#31=PRESENTATION_STYLE_ASSIGNMENT((#35));
#32=SURFACE_STYLE_USAGE(.BOTH.,#36);
#33=SURFACE_STYLE_USAGE(.BOTH.,#37);
#34=SURFACE_STYLE_USAGE(.BOTH.,#38);
#35=SURFACE_STYLE_USAGE(.BOTH.,#39);
#36=SURFACE_SIDE_STYLE('',(#40));
#37=SURFACE_SIDE_STYLE('',(#41));
#38=SURFACE_SIDE_STYLE('',(#42));
#39=SURFACE_SIDE_STYLE('',(#43));
#40=SURFACE_STYLE_FILL_AREA(#44);
#41=SURFACE_STYLE_FILL_AREA(#45);
#42=SURFACE_STYLE_FILL_AREA(#46);
#43=SURFACE_STYLE_FILL_AREA(#47);
#44=FILL_AREA_STYLE('',(#48));
#45=FILL_AREA_STYLE('',(#49));
#46=FILL_AREA_STYLE('',(#50));
#47=FILL_AREA_STYLE('',(#51));
#48=FILL_AREA_STYLE_COLOUR('',#52);
#49=FILL_AREA_STYLE_COLOUR('',#52);
#50=FILL_AREA_STYLE_COLOUR('',#52);
#51=FILL_AREA_STYLE_COLOUR('',#52);
#52=COLOUR_RGB('Orange',1.,0.6,0.);
#53=MANIFOLD_SOLID_BREP('',#57);
#54=MANIFOLD_SOLID_BREP('',#58);
#55=MANIFOLD_SOLID_BREP('',#59);
#56=MANIFOLD_SOLID_BREP('',#60);
#57=CLOSED_SHELL('',(#86,#87,#88,#89,#90,#91,#92,#93,#94,#95));
#58=CLOSED_SHELL('',(#96,#97,#98));
#59=CLOSED_SHELL('',(#99,#100,#101));
#60=CLOSED_SHELL('',(#102,#103,#104));
#61=PLANE('',#253);
#62=PLANE('',#254);
#63=PLANE('',#255);
#64=PLANE('',#258);
#65=PLANE('',#259);
#66=PLANE('',#262);
#67=PLANE('',#265);
#68=PLANE('',#269);
#69=PLANE('',#270);
#70=PLANE('',#274);
#71=PLANE('',#275);
#72=PLANE('',#279);
#73=PLANE('',#280);
#74=FACE_OUTER_BOUND('',#130,.T.);
#75=FACE_OUTER_BOUND('',#131,.T.);
#76=FACE_OUTER_BOUND('',#132,.T.);
#77=FACE_OUTER_BOUND('',#136,.T.);
#78=FACE_OUTER_BOUND('',#139,.T.);
#79=FACE_OUTER_BOUND('',#142,.T.);
#80=FACE_OUTER_BOUND('',#145,.T.);
#81=FACE_OUTER_BOUND('',#146,.T.);
#82=FACE_OUTER_BOUND('',#149,.T.);
#83=FACE_OUTER_BOUND('',#150,.T.);
#84=FACE_OUTER_BOUND('',#153,.T.);
#85=FACE_OUTER_BOUND('',#154,.T.);
#86=ADVANCED_FACE('',(#111,#112,#113),#105,.T.);
#87=ADVANCED_FACE('',(#74),#61,.F.);
#88=ADVANCED_FACE('',(#75),#62,.T.);
#89=ADVANCED_FACE('',(#76),#63,.T.);
#90=ADVANCED_FACE('',(#114,#115,#116),#64,.T.);
#91=ADVANCED_FACE('',(#77),#65,.T.);
#92=ADVANCED_FACE('',(#117,#118),#106,.F.);
#93=ADVANCED_FACE('',(#78),#66,.T.);
#94=ADVANCED_FACE('',(#119,#120),#107,.F.);
#95=ADVANCED_FACE('',(#79),#67,.T.);
#96=ADVANCED_FACE('',(#121,#122),#108,.T.);
#97=ADVANCED_FACE('',(#80),#68,.T.);
#98=ADVANCED_FACE('',(#81),#69,.F.);
#99=ADVANCED_FACE('',(#123,#124),#109,.T.);
#100=ADVANCED_FACE('',(#82),#70,.F.);
#101=ADVANCED_FACE('',(#83),#71,.T.);
#102=ADVANCED_FACE('',(#125,#126),#110,.T.);
#103=ADVANCED_FACE('',(#84),#72,.F.);
#104=ADVANCED_FACE('',(#85),#73,.T.);
#105=CYLINDRICAL_SURFACE('',#252,0.735);
#106=CYLINDRICAL_SURFACE('',#261,0.25);
#107=CYLINDRICAL_SURFACE('',#264,0.25);
#108=CYLINDRICAL_SURFACE('',#268,2.);
#109=CYLINDRICAL_SURFACE('',#273,0.5);
#110=CYLINDRICAL_SURFACE('',#278,0.5);
#111=FACE_BOUND('',#127,.T.);
#112=FACE_BOUND('',#128,.T.);
#113=FACE_BOUND('',#129,.T.);
#114=FACE_BOUND('',#133,.T.);
#115=FACE_BOUND('',#134,.T.);
#116=FACE_BOUND('',#135,.T.);
#117=FACE_BOUND('',#137,.T.);
#118=FACE_BOUND('',#138,.T.);
#119=FACE_BOUND('',#140,.T.);
#120=FACE_BOUND('',#141,.T.);
#121=FACE_BOUND('',#143,.T.);
#122=FACE_BOUND('',#144,.T.);
#123=FACE_BOUND('',#147,.T.);
#124=FACE_BOUND('',#148,.T.);
#125=FACE_BOUND('',#151,.T.);
#126=FACE_BOUND('',#152,.T.);
#127=EDGE_LOOP('',(#169,#170,#171,#172));
#128=EDGE_LOOP('',(#173));
#129=EDGE_LOOP('',(#174));
#130=EDGE_LOOP('',(#175));
#131=EDGE_LOOP('',(#176));
#132=EDGE_LOOP('',(#177,#178));
#133=EDGE_LOOP('',(#179));
#134=EDGE_LOOP('',(#180));
#135=EDGE_LOOP('',(#181,#182,#183,#184));
#136=EDGE_LOOP('',(#185,#186));
#137=EDGE_LOOP('',(#187));
#138=EDGE_LOOP('',(#188));
#139=EDGE_LOOP('',(#189));
#140=EDGE_LOOP('',(#190));
#141=EDGE_LOOP('',(#191));
#142=EDGE_LOOP('',(#192));
#143=EDGE_LOOP('',(#193));
#144=EDGE_LOOP('',(#194));
#145=EDGE_LOOP('',(#195));
#146=EDGE_LOOP('',(#196));
#147=EDGE_LOOP('',(#197));
#148=EDGE_LOOP('',(#198));
#149=EDGE_LOOP('',(#199));
#150=EDGE_LOOP('',(#200));
#151=EDGE_LOOP('',(#201));
#152=EDGE_LOOP('',(#202));
#153=EDGE_LOOP('',(#203));
#154=EDGE_LOOP('',(#204));
#155=CIRCLE('',#248,0.735);
#156=CIRCLE('',#249,0.735);
#157=CIRCLE('',#250,0.735);
#158=CIRCLE('',#251,0.735);
#159=CIRCLE('',#256,0.25);
#160=CIRCLE('',#257,0.25);
#161=CIRCLE('',#260,0.25);
#162=CIRCLE('',#263,0.25);
#163=CIRCLE('',#266,2.);
#164=CIRCLE('',#267,2.);
#165=CIRCLE('',#271,0.5);
#166=CIRCLE('',#272,0.5);
#167=CIRCLE('',#276,0.5);
#168=CIRCLE('',#277,0.5);
#169=ORIENTED_EDGE('',*,*,#221,.T.);
#170=ORIENTED_EDGE('',*,*,#222,.T.);
#171=ORIENTED_EDGE('',*,*,#223,.T.);
#172=ORIENTED_EDGE('',*,*,#224,.T.);
#173=ORIENTED_EDGE('',*,*,#225,.T.);
#174=ORIENTED_EDGE('',*,*,#226,.F.);
#175=ORIENTED_EDGE('',*,*,#225,.F.);
#176=ORIENTED_EDGE('',*,*,#226,.T.);
#177=ORIENTED_EDGE('',*,*,#222,.F.);
#178=ORIENTED_EDGE('',*,*,#227,.F.);
#179=ORIENTED_EDGE('',*,*,#228,.F.);
#180=ORIENTED_EDGE('',*,*,#229,.F.);
#181=ORIENTED_EDGE('',*,*,#227,.T.);
#182=ORIENTED_EDGE('',*,*,#221,.F.);
#183=ORIENTED_EDGE('',*,*,#230,.F.);
#184=ORIENTED_EDGE('',*,*,#223,.F.);
#185=ORIENTED_EDGE('',*,*,#230,.T.);
#186=ORIENTED_EDGE('',*,*,#224,.F.);
#187=ORIENTED_EDGE('',*,*,#231,.T.);
#188=ORIENTED_EDGE('',*,*,#229,.T.);
#189=ORIENTED_EDGE('',*,*,#231,.F.);
#190=ORIENTED_EDGE('',*,*,#232,.T.);
#191=ORIENTED_EDGE('',*,*,#228,.T.);
#192=ORIENTED_EDGE('',*,*,#232,.F.);
#193=ORIENTED_EDGE('',*,*,#233,.F.);
#194=ORIENTED_EDGE('',*,*,#234,.T.);
#195=ORIENTED_EDGE('',*,*,#233,.T.);
#196=ORIENTED_EDGE('',*,*,#234,.F.);
#197=ORIENTED_EDGE('',*,*,#235,.T.);
#198=ORIENTED_EDGE('',*,*,#236,.F.);
#199=ORIENTED_EDGE('',*,*,#235,.F.);
#200=ORIENTED_EDGE('',*,*,#236,.T.);
#201=ORIENTED_EDGE('',*,*,#237,.T.);
#202=ORIENTED_EDGE('',*,*,#238,.F.);
#203=ORIENTED_EDGE('',*,*,#237,.F.);
#204=ORIENTED_EDGE('',*,*,#238,.T.);
#205=VERTEX_POINT('',#355);
#206=VERTEX_POINT('',#356);
#207=VERTEX_POINT('',#358);
#208=VERTEX_POINT('',#360);
#209=VERTEX_POINT('',#363);
#210=VERTEX_POINT('',#365);
#211=VERTEX_POINT('',#372);
#212=VERTEX_POINT('',#374);
#213=VERTEX_POINT('',#379);
#214=VERTEX_POINT('',#383);
#215=VERTEX_POINT('',#387);
#216=VERTEX_POINT('',#389);
#217=VERTEX_POINT('',#394);
#218=VERTEX_POINT('',#396);
#219=VERTEX_POINT('',#401);
#220=VERTEX_POINT('',#403);
#221=EDGE_CURVE('',#205,#206,#239,.T.);
#222=EDGE_CURVE('',#206,#207,#155,.T.);
#223=EDGE_CURVE('',#207,#208,#240,.T.);
#224=EDGE_CURVE('',#208,#205,#156,.T.);
#225=EDGE_CURVE('',#209,#209,#157,.T.);
#226=EDGE_CURVE('',#210,#210,#158,.T.);
#227=EDGE_CURVE('',#207,#206,#241,.T.);
#228=EDGE_CURVE('',#211,#211,#159,.T.);
#229=EDGE_CURVE('',#212,#212,#160,.T.);
#230=EDGE_CURVE('',#208,#205,#242,.T.);
#231=EDGE_CURVE('',#213,#213,#161,.T.);
#232=EDGE_CURVE('',#214,#214,#162,.T.);
#233=EDGE_CURVE('',#215,#215,#163,.T.);
#234=EDGE_CURVE('',#216,#216,#164,.T.);
#235=EDGE_CURVE('',#217,#217,#165,.T.);
#236=EDGE_CURVE('',#218,#218,#166,.T.);
#237=EDGE_CURVE('',#219,#219,#167,.T.);
#238=EDGE_CURVE('',#220,#220,#168,.T.);
#239=LINE('',#354,#243);
#240=LINE('',#359,#244);
#241=LINE('',#369,#245);
#242=LINE('',#375,#246);
#243=VECTOR('',#283,1.);
#244=VECTOR('',#286,1.);
#245=VECTOR('',#299,1.);
#246=VECTOR('',#306,1.);
#247=AXIS2_PLACEMENT_3D('',#353,#281,#282);
#248=AXIS2_PLACEMENT_3D('',#357,#284,#285);
#249=AXIS2_PLACEMENT_3D('',#361,#287,#288);
#250=AXIS2_PLACEMENT_3D('',#362,#289,#290);
#251=AXIS2_PLACEMENT_3D('',#364,#291,#292);
#252=AXIS2_PLACEMENT_3D('',#366,#293,#294);
#253=AXIS2_PLACEMENT_3D('',#367,#295,#296);
#254=AXIS2_PLACEMENT_3D('',#368,#297,#298);
#255=AXIS2_PLACEMENT_3D('',#370,#300,#301);
#256=AXIS2_PLACEMENT_3D('',#371,#302,#303);
#257=AXIS2_PLACEMENT_3D('',#373,#304,#305);
#258=AXIS2_PLACEMENT_3D('',#376,#307,#308);
#259=AXIS2_PLACEMENT_3D('',#377,#309,#310);
#260=AXIS2_PLACEMENT_3D('',#378,#311,#312);
#261=AXIS2_PLACEMENT_3D('',#380,#313,#314);
#262=AXIS2_PLACEMENT_3D('',#381,#315,#316);
#263=AXIS2_PLACEMENT_3D('',#382,#317,#318);
#264=AXIS2_PLACEMENT_3D('',#384,#319,#320);
#265=AXIS2_PLACEMENT_3D('',#385,#321,#322);
#266=AXIS2_PLACEMENT_3D('',#386,#323,#324);
#267=AXIS2_PLACEMENT_3D('',#388,#325,#326);
#268=AXIS2_PLACEMENT_3D('',#390,#327,#328);
#269=AXIS2_PLACEMENT_3D('',#391,#329,#330);
#270=AXIS2_PLACEMENT_3D('',#392,#331,#332);
#271=AXIS2_PLACEMENT_3D('',#393,#333,#334);
#272=AXIS2_PLACEMENT_3D('',#395,#335,#336);
#273=AXIS2_PLACEMENT_3D('',#397,#337,#338);
#274=AXIS2_PLACEMENT_3D('',#398,#339,#340);
#275=AXIS2_PLACEMENT_3D('',#399,#341,#342);
#276=AXIS2_PLACEMENT_3D('',#400,#343,#344);
#277=AXIS2_PLACEMENT_3D('',#402,#345,#346);
#278=AXIS2_PLACEMENT_3D('',#404,#347,#348);
#279=AXIS2_PLACEMENT_3D('',#405,#349,#350);
#280=AXIS2_PLACEMENT_3D('',#406,#351,#352);
#281=DIRECTION('',(0.,0.,1.));
#282=DIRECTION('',(1.,0.,0.));
#283=DIRECTION('',(-1.,0.,0.));
#284=DIRECTION('',(-1.,0.,0.));
#285=DIRECTION('',(0.,0.,-1.));
#286=DIRECTION('',(1.,0.,0.));
#287=DIRECTION('',(1.,0.,0.));
#288=DIRECTION('',(0.,0.,1.));
#289=DIRECTION('',(1.,0.,0.));
#290=DIRECTION('',(0.,1.22464679914735E-16,1.));
#291=DIRECTION('',(1.,0.,0.));
#292=DIRECTION('',(0.,1.22464679914735E-16,1.));
#293=DIRECTION('',(1.,0.,0.));
#294=DIRECTION('',(0.,0.,-1.));
#295=DIRECTION('',(1.,0.,0.));
#296=DIRECTION('',(0.,0.,-1.));
#297=DIRECTION('',(1.,0.,0.));
#298=DIRECTION('',(0.,0.,-1.));
#299=DIRECTION('',(0.,0.,1.));
#300=DIRECTION('',(1.,0.,0.));
#301=DIRECTION('',(0.,0.,-1.));
#302=DIRECTION('',(0.,1.,0.));
#303=DIRECTION('',(0.999999999999999,0.,6.7762635780344E-17));
#304=DIRECTION('',(0.,1.,0.));
#305=DIRECTION('',(1.,0.,6.77626357803441E-17));
#306=DIRECTION('',(0.,0.,1.));
#307=DIRECTION('',(0.,1.,0.));
#308=DIRECTION('',(0.,0.,1.));
#309=DIRECTION('',(-1.,0.,0.));
#310=DIRECTION('',(0.,0.,1.));
#311=DIRECTION('',(0.,-1.,0.));
#312=DIRECTION('',(1.,0.,6.77626357803441E-17));
#313=DIRECTION('',(0.,1.,0.));
#314=DIRECTION('',(0.,0.,1.));
#315=DIRECTION('',(0.,1.,0.));
#316=DIRECTION('',(0.,0.,1.));
#317=DIRECTION('',(0.,-1.,0.));
#318=DIRECTION('',(0.999999999999999,0.,6.7762635780344E-17));
#319=DIRECTION('',(0.,1.,0.));
#320=DIRECTION('',(0.,0.,1.));
#321=DIRECTION('',(0.,1.,0.));
#322=DIRECTION('',(0.,0.,1.));
#323=DIRECTION('',(-1.,0.,0.));
#324=DIRECTION('',(0.,1.,6.12323399573677E-17));
#325=DIRECTION('',(-1.,0.,0.));
#326=DIRECTION('',(0.,1.,6.12323399573677E-17));
#327=DIRECTION('',(1.,0.,0.));
#328=DIRECTION('',(0.,0.,-1.));
#329=DIRECTION('',(-1.,0.,0.));
#330=DIRECTION('',(0.,0.,1.));
#331=DIRECTION('',(-1.,0.,0.));
#332=DIRECTION('',(0.,0.,1.));
#333=DIRECTION('',(1.,0.,0.));
#334=DIRECTION('',(0.,1.22464679914735E-16,1.));
#335=DIRECTION('',(1.,0.,0.));
#336=DIRECTION('',(0.,1.22464679914735E-16,1.));
#337=DIRECTION('',(1.,0.,0.));
#338=DIRECTION('',(0.,0.,-1.));
#339=DIRECTION('',(1.,0.,0.));
#340=DIRECTION('',(0.,0.,-1.));
#341=DIRECTION('',(1.,0.,0.));
#342=DIRECTION('',(0.,0.,-1.));
#343=DIRECTION('',(1.,0.,0.));
#344=DIRECTION('',(0.,1.22464679914735E-16,1.));
#345=DIRECTION('',(1.,0.,0.));
#346=DIRECTION('',(0.,1.22464679914735E-16,1.));
#347=DIRECTION('',(1.,0.,0.));
#348=DIRECTION('',(0.,0.,-1.));
#349=DIRECTION('',(1.,0.,0.));
#350=DIRECTION('',(0.,0.,-1.));
#351=DIRECTION('',(1.,0.,0.));
#352=DIRECTION('',(0.,0.,-1.));
#353=CARTESIAN_POINT('',(0.,0.,0.));
#354=CARTESIAN_POINT('',(0.,0.,0.735));
#355=CARTESIAN_POINT('',(3.2,0.,0.735));
#356=CARTESIAN_POINT('',(1.63487738419619,0.,0.735));
#357=CARTESIAN_POINT('',(1.63487738419619,0.,0.));
#358=CARTESIAN_POINT('',(1.63487738419619,0.,-0.735));
#359=CARTESIAN_POINT('',(0.,0.,-0.735));
#360=CARTESIAN_POINT('',(3.2,0.,-0.735));
#361=CARTESIAN_POINT('',(3.2,0.,0.));
#362=CARTESIAN_POINT('',(0.,0.,0.));
#363=CARTESIAN_POINT('',(0.,9.00115397373305E-17,0.735));
#364=CARTESIAN_POINT('',(15.,0.,0.));
#365=CARTESIAN_POINT('',(15.,9.00115397373305E-17,0.735));
#366=CARTESIAN_POINT('',(0.,0.,0.));
#367=CARTESIAN_POINT('',(0.,0.,0.));
#368=CARTESIAN_POINT('',(15.,0.,0.));
#369=CARTESIAN_POINT('',(1.63487738419619,0.,-4.33680868994202E-16));
#370=CARTESIAN_POINT('',(1.63487738419619,0.8,-4.33680868994202E-16));
#371=CARTESIAN_POINT('',(2.70524804202815,0.,0.0203985048306439));
#372=CARTESIAN_POINT('',(2.95524804202815,0.,0.0203985048306439));
#373=CARTESIAN_POINT('',(2.08973814920321,0.,0.0203985048306439));
#374=CARTESIAN_POINT('',(2.33973814920321,0.,0.0203985048306439));
#375=CARTESIAN_POINT('',(3.2,0.,-4.33680868994202E-16));
#376=CARTESIAN_POINT('',(1.63487738419619,0.,-4.33680868994202E-16));
#377=CARTESIAN_POINT('',(3.2,0.,-4.33680868994202E-16));
#378=CARTESIAN_POINT('',(2.08973814920321,-0.05,0.0203985048306439));
#379=CARTESIAN_POINT('',(2.33973814920321,-0.05,0.0203985048306439));
#380=CARTESIAN_POINT('',(2.08973814920321,-0.05,0.0203985048306439));
#381=CARTESIAN_POINT('',(2.08973814920321,-0.05,0.0203985048306439));
#382=CARTESIAN_POINT('',(2.70524804202815,-0.05,0.0203985048306439));
#383=CARTESIAN_POINT('',(2.95524804202815,-0.05,0.0203985048306439));
#384=CARTESIAN_POINT('',(2.70524804202815,-0.05,0.0203985048306439));
#385=CARTESIAN_POINT('',(2.70524804202815,-0.05,0.0203985048306439));
#386=CARTESIAN_POINT('',(15.,0.,0.));
#387=CARTESIAN_POINT('',(15.,2.,1.22464679914735E-16));
#388=CARTESIAN_POINT('',(30.,0.,0.));
#389=CARTESIAN_POINT('',(30.,2.,1.22464679914735E-16));
#390=CARTESIAN_POINT('',(15.,0.,0.));
#391=CARTESIAN_POINT('',(15.,0.,0.));
#392=CARTESIAN_POINT('',(30.,0.,0.));
#393=CARTESIAN_POINT('',(30.,-4.68725681953547E-16,-0.5));
#394=CARTESIAN_POINT('',(30.,-4.07493341996179E-16,0.));
#395=CARTESIAN_POINT('',(50.,-4.68725681953547E-16,-0.5));
#396=CARTESIAN_POINT('',(50.,-4.07493341996179E-16,0.));
#397=CARTESIAN_POINT('',(30.,-4.68725681953547E-16,-0.5));
#398=CARTESIAN_POINT('',(30.,-4.68725681953547E-16,-0.5));
#399=CARTESIAN_POINT('',(50.,-4.68725681953547E-16,-0.5));
#400=CARTESIAN_POINT('',(30.,4.59351168314476E-16,0.49));
#401=CARTESIAN_POINT('',(30.,5.20583508271844E-16,0.99));
#402=CARTESIAN_POINT('',(50.,4.59351168314476E-16,0.49));
#403=CARTESIAN_POINT('',(50.,5.20583508271844E-16,0.99));
#404=CARTESIAN_POINT('',(30.,4.59351168314476E-16,0.49));
#405=CARTESIAN_POINT('',(30.,4.59351168314476E-16,0.49));
#406=CARTESIAN_POINT('',(50.,4.59351168314476E-16,0.49));
#407=MECHANICAL_DESIGN_GEOMETRIC_PRESENTATION_REPRESENTATION('',(#24,#25,
#26,#27),#408);
#408=(
GEOMETRIC_REPRESENTATION_CONTEXT(3)
GLOBAL_UNCERTAINTY_ASSIGNED_CONTEXT((#409))
GLOBAL_UNIT_ASSIGNED_CONTEXT((#415,#411,#410))
REPRESENTATION_CONTEXT('EX-LD41S15','TOP_LEVEL_ASSEMBLY_PART')
);
#409=UNCERTAINTY_MEASURE_WITH_UNIT(LENGTH_MEASURE(2.E-5),#415,
'DISTANCE_ACCURACY_VALUE','Maximum Tolerance applied to model');
#410=(
NAMED_UNIT(*)
SI_UNIT($,.STERADIAN.)
SOLID_ANGLE_UNIT()
);
#411=(
CONVERSION_BASED_UNIT('DEGREE',#413)
NAMED_UNIT(#412)
PLANE_ANGLE_UNIT()
);
#412=DIMENSIONAL_EXPONENTS(0.,0.,0.,0.,0.,0.,0.);
#413=PLANE_ANGLE_MEASURE_WITH_UNIT(PLANE_ANGLE_MEASURE(0.0174532925),#414);
#414=(
NAMED_UNIT(*)
PLANE_ANGLE_UNIT()
SI_UNIT($,.RADIAN.)
);
#415=(
LENGTH_UNIT()
NAMED_UNIT(*)
SI_UNIT(.MILLI.,.METRE.)
);
ENDSEC;
END-ISO-10303-21;
